ISO-10303-21;
HEADER;
FILE_DESCRIPTION (( 'STEP AP203' ),
    '1' );
FILE_NAME ('QB-CTZHWP-50.8-1310-M.STEP',
    '2020-12-24T01:38:04',
    ( '' ),
    ( '' ),
    'SwSTEP 2.0',
    'SolidWorks 2020',
    '' );
FILE_SCHEMA (( 'CONFIG_CONTROL_DESIGN' ));
ENDSEC;

DATA;
#1 = APPROVAL_ROLE ( '' ) ;
#2 = PERSON_AND_ORGANIZATION_ROLE ( 'design_owner' ) ;
#3 = CIRCLE ( 'NONE', #24, 25.39999999999999858 ) ;
#4 = EDGE_CURVE ( 'NONE', #47, #25, #37, .T. ) ;
#5 = CC_DESIGN_PERSON_AND_ORGANIZATION_ASSIGNMENT ( #44, #101, ( #127 ) ) ;
#6 = APPLICATION_CONTEXT ( 'configuration controlled 3d designs of mechanical parts and assemblies' ) ;
#7 = APPROVAL ( #111, 'UNSPECIFIED' ) ;
#8 = APPROVAL_DATE_TIME ( #145, #7 ) ;
#9 = LINE ( 'NONE', #105, #100 ) ;
#10 = DIRECTION ( 'NONE',  ( -1.000000000000000000, -0.000000000000000000, -0.000000000000000000 ) ) ;
#11 = EDGE_LOOP ( 'NONE', ( #61, #129, #170, #118 ) ) ;
#12 = CLOSED_SHELL ( 'NONE', ( #156, #103, #114, #123 ) ) ;
#13 = CARTESIAN_POINT ( 'NONE',  ( -3.000000000000000000, 0.000000000000000000, 0.000000000000000000 ) ) ;
#14 = DIRECTION ( 'NONE',  ( -0.000000000000000000, 0.000000000000000000, 1.000000000000000000 ) ) ;
#15 = DIRECTION ( 'NONE',  ( 1.000000000000000000, 0.000000000000000000, 0.000000000000000000 ) ) ;
#16 = DATE_AND_TIME ( #166, #139 ) ;
#17 = CIRCLE ( 'NONE', #128, 25.39999999999999858 ) ;
#18 = DATE_TIME_ROLE ( 'classification_date' ) ;
#19 = APPROVAL_STATUS ( 'not_yet_approved' ) ;
#20 = ORIENTED_EDGE ( 'NONE', *, *, #75, .T. ) ;
#21 = CC_DESIGN_DATE_AND_TIME_ASSIGNMENT ( #140, #18, ( #63 ) ) ;
#22 = EDGE_CURVE ( 'NONE', #144, #25, #106, .T. ) ;
#23 = PRODUCT_DEFINITION_FORMATION_WITH_SPECIFIED_SOURCE ( 'ANY', '', #165, .NOT_KNOWN. ) ;
#24 = AXIS2_PLACEMENT_3D ( 'NONE', #160, #10, #119 ) ;
#25 = VERTEX_POINT ( 'NONE', #67 ) ;
#26 = DIRECTION ( 'NONE',  ( 0.000000000000000000, 0.000000000000000000, 1.000000000000000000 ) ) ;
#27 = ORIENTED_EDGE ( 'NONE', *, *, #35, .F. ) ;
#28 = FACE_OUTER_BOUND ( 'NONE', #107, .T. ) ;
#29 = CARTESIAN_POINT ( 'NONE',  ( 3.000000000000002665, 0.000000000000000000, 0.000000000000000000 ) ) ;
#30 = APPROVAL_ROLE ( '' ) ;
#31 = PERSON_AND_ORGANIZATION_ROLE ( 'design_supplier' ) ;
#32 = PERSON_AND_ORGANIZATION ( #173, #167 ) ;
#33 = CC_DESIGN_APPROVAL ( #142, ( #23 ) ) ;
#34 = DIRECTION ( 'NONE',  ( 0.000000000000000000, 0.000000000000000000, 1.000000000000000000 ) ) ;
#35 = EDGE_CURVE ( 'NONE', #144, #143, #52, .T. ) ;
#36 = EDGE_CURVE ( 'NONE', #143, #144, #17, .T. ) ;
#37 = CIRCLE ( 'NONE', #77, 25.39999999999999858 ) ;
#38 = ORIENTED_EDGE ( 'NONE', *, *, #35, .T. ) ;
#39 = FACE_OUTER_BOUND ( 'NONE', #88, .T. ) ;
#40 = CARTESIAN_POINT ( 'NONE',  ( 3.000000000000002665, 0.000000000000000000, 0.000000000000000000 ) ) ;
#41 = APPROVAL ( #151, 'UNSPECIFIED' ) ;
#42 = DIRECTION ( 'NONE',  ( 0.000000000000000000, 0.000000000000000000, -1.000000000000000000 ) ) ;
#43 = AXIS2_PLACEMENT_3D ( 'NONE', #53, #163, #42 ) ;
#44 = PERSON_AND_ORGANIZATION ( #173, #167 ) ;
#45 = DATE_AND_TIME ( #155, #172 ) ;
#46 = PERSON_AND_ORGANIZATION ( #173, #167 ) ;
#47 = VERTEX_POINT ( 'NONE', #174 ) ;
#48 = PRODUCT_RELATED_PRODUCT_CATEGORY ( 'detail', '', ( #165 ) ) ;
#49 = APPROVAL_PERSON_ORGANIZATION ( #109, #41, #30 ) ;
#50 = CARTESIAN_POINT ( 'NONE',  ( 3.000000000000002665, 0.000000000000000000, 25.39999999999999858 ) ) ;
#51 = ORIENTED_EDGE ( 'NONE', *, *, #36, .F. ) ;
#52 = CIRCLE ( 'NONE', #162, 25.39999999999999858 ) ;
#53 = CARTESIAN_POINT ( 'NONE',  ( -3.000000000000001332, 25.39999999999999858, 0.000000000000000000 ) ) ;
#54 = DIRECTION ( 'NONE',  ( -1.000000000000000000, 0.000000000000000000, -0.000000000000000000 ) ) ;
#55 = DIRECTION ( 'NONE',  ( -1.000000000000000000, -0.000000000000000000, -0.000000000000000000 ) ) ;
#56 = COORDINATED_UNIVERSAL_TIME_OFFSET ( 8, 0, .AHEAD. ) ;
#57 = APPROVAL_PERSON_ORGANIZATION ( #81, #142, #1 ) ;
#58 = APPLICATION_PROTOCOL_DEFINITION ( 'international standard', 'config_control_design', 1994, #168 ) ;
#59 = PERSON_AND_ORGANIZATION_ROLE ( 'creator' ) ;
#60 = APPROVAL_ROLE ( '' ) ;
#61 = ORIENTED_EDGE ( 'NONE', *, *, #75, .F. ) ;
#62 = CC_DESIGN_APPROVAL ( #7, ( #63 ) ) ;
#63 = SECURITY_CLASSIFICATION ( '', '', #82 ) ;
#64 = EDGE_LOOP ( 'NONE', ( #102, #87 ) ) ;
#65 = DIRECTION ( 'NONE',  ( -1.000000000000000000, -0.000000000000000000, -0.000000000000000000 ) ) ;
#66 = CC_DESIGN_PERSON_AND_ORGANIZATION_ASSIGNMENT ( #84, #2, ( #165 ) ) ;
#67 = CARTESIAN_POINT ( 'NONE',  ( -3.000000000000002665, 0.000000000000000000, 25.39999999999999858 ) ) ;
#68 = DIRECTION ( 'NONE',  ( 0.000000000000000000, 0.000000000000000000, 1.000000000000000000 ) ) ;
#69 = DIRECTION ( 'NONE',  ( -1.000000000000000000, -0.000000000000000000, -0.000000000000000000 ) ) ;
#70 = DATE_TIME_ROLE ( 'creation_date' ) ;
#71 = COORDINATED_UNIVERSAL_TIME_OFFSET ( 8, 0, .AHEAD. ) ;
#72 = PERSON_AND_ORGANIZATION_ROLE ( 'classification_officer' ) ;
#73 = DESIGN_CONTEXT ( 'detailed design', #6, 'design' ) ;
#74 = CALENDAR_DATE ( 2020, 24, 12 ) ;
#75 = EDGE_CURVE ( 'NONE', #143, #47, #9, .T. ) ;
#76 = DIRECTION ( 'NONE',  ( 0.000000000000000000, 0.000000000000000000, 1.000000000000000000 ) ) ;
#77 = AXIS2_PLACEMENT_3D ( 'NONE', #132, #65, #76 ) ;
#78 = CC_DESIGN_PERSON_AND_ORGANIZATION_ASSIGNMENT ( #153, #59, ( #23 ) ) ;
#79 = FACE_OUTER_BOUND ( 'NONE', #11, .T. ) ;
#80 = CYLINDRICAL_SURFACE ( 'NONE', #104, 25.39999999999999858 ) ;
#81 = PERSON_AND_ORGANIZATION ( #173, #167 ) ;
#82 = SECURITY_CLASSIFICATION_LEVEL ( 'unclassified' ) ;
#83 = MECHANICAL_CONTEXT ( 'NONE', #168, 'mechanical' ) ;
#84 = PERSON_AND_ORGANIZATION ( #173, #167 ) ;
#85 = CC_DESIGN_APPROVAL ( #41, ( #127 ) ) ;
#86 = CC_DESIGN_PERSON_AND_ORGANIZATION_ASSIGNMENT ( #96, #72, ( #63 ) ) ;
#87 = ORIENTED_EDGE ( 'NONE', *, *, #4, .T. ) ;
#88 = EDGE_LOOP ( 'NONE', ( #27, #51 ) ) ;
#89 = CARTESIAN_POINT ( 'NONE',  ( -3.000000000000000000, 0.000000000000000000, 0.000000000000000000 ) ) ;
#90 = LOCAL_TIME ( 9, 38, 4.000000000000000000, #130 ) ;
#91 = PRODUCT_DEFINITION_SHAPE ( 'NONE', 'NONE',  #127 ) ;
#92 = DIRECTION ( 'NONE',  ( -1.000000000000000000, -0.000000000000000000, -0.000000000000000000 ) ) ;
#93 = CARTESIAN_POINT ( 'NONE',  ( 3.000000000000002665, 3.110602869834276865E-15, -25.39999999999999858 ) ) ;
#94 = DIRECTION ( 'NONE',  ( 0.000000000000000000, 0.000000000000000000, 1.000000000000000000 ) ) ;
#95 = EDGE_CURVE ( 'NONE', #25, #47, #3, .T. ) ;
#96 = PERSON_AND_ORGANIZATION ( #173, #167 ) ;
#97 = CARTESIAN_POINT ( 'NONE',  ( 0.000000000000000000, 0.000000000000000000, 0.000000000000000000 ) ) ;
#98 = CC_DESIGN_DATE_AND_TIME_ASSIGNMENT ( #45, #70, ( #127 ) ) ;
#99 = CALENDAR_DATE ( 2020, 24, 12 ) ;
#100 = VECTOR ( 'NONE', #122, 1000.000000000000000 ) ;
#101 = PERSON_AND_ORGANIZATION_ROLE ( 'creator' ) ;
#102 = ORIENTED_EDGE ( 'NONE', *, *, #95, .T. ) ;
#103 = ADVANCED_FACE ( 'NONE', ( #79 ), #80, .T. ) ;
#104 = AXIS2_PLACEMENT_3D ( 'NONE', #13, #147, #120 ) ;
#105 = CARTESIAN_POINT ( 'NONE',  ( -3.000000000000000000, 3.110602869834276865E-15, -25.39999999999999858 ) ) ;
#106 = LINE ( 'NONE', #169, #115 ) ;
#107 = EDGE_LOOP ( 'NONE', ( #38, #20, #159, #158 ) ) ;
#108 = CARTESIAN_POINT ( 'NONE',  ( 3.000000000000001332, 25.39999999999999858, 0.000000000000000000 ) ) ;
#109 = PERSON_AND_ORGANIZATION ( #173, #167 ) ;
#110 = CALENDAR_DATE ( 2020, 24, 12 ) ;
#111 = APPROVAL_STATUS ( 'not_yet_approved' ) ;
#112 = UNCERTAINTY_MEASURE_WITH_UNIT (LENGTH_MEASURE( 1.000000000000000082E-05 ), #121, 'distance_accuracy_value', 'NONE');
#113 = MANIFOLD_SOLID_BREP ( 'Ðý×', #12 ) ;
#114 = ADVANCED_FACE ( 'NONE', ( #39 ), #148, .F. ) ;
#115 = VECTOR ( 'NONE', #92, 1000.000000000000000 ) ;
#116 =( GEOMETRIC_REPRESENTATION_CONTEXT ( 3 ) GLOBAL_UNCERTAINTY_ASSIGNED_CONTEXT ( ( #112 ) ) GLOBAL_UNIT_ASSIGNED_CONTEXT ( ( #121, #149, #146 ) ) REPRESENTATION_CONTEXT ( 'NONE', 'WORKASPACE' ) );
#117 = SHAPE_DEFINITION_REPRESENTATION ( #91, #154 ) ;
#118 = ORIENTED_EDGE ( 'NONE', *, *, #4, .F. ) ;
#119 = DIRECTION ( 'NONE',  ( 0.000000000000000000, 0.000000000000000000, 1.000000000000000000 ) ) ;
#120 = DIRECTION ( 'NONE',  ( 0.000000000000000000, 0.000000000000000000, 1.000000000000000000 ) ) ;
#121 =( LENGTH_UNIT ( ) NAMED_UNIT ( * ) SI_UNIT ( .MILLI., .METRE. ) );
#122 = DIRECTION ( 'NONE',  ( -1.000000000000000000, -0.000000000000000000, -0.000000000000000000 ) ) ;
#123 = ADVANCED_FACE ( 'NONE', ( #136 ), #171, .F. ) ;
#124 = APPROVAL_DATE_TIME ( #152, #142 ) ;
#125 = COORDINATED_UNIVERSAL_TIME_OFFSET ( 8, 0, .AHEAD. ) ;
#126 = AXIS2_PLACEMENT_3D ( 'NONE', #97, #34, #15 ) ;
#127 = PRODUCT_DEFINITION ( 'UNKNOWN', '', #23, #73 ) ;
#128 = AXIS2_PLACEMENT_3D ( 'NONE', #40, #131, #26 ) ;
#129 = ORIENTED_EDGE ( 'NONE', *, *, #36, .T. ) ;
#130 = COORDINATED_UNIVERSAL_TIME_OFFSET ( 8, 0, .AHEAD. ) ;
#131 = DIRECTION ( 'NONE',  ( -1.000000000000000000, -0.000000000000000000, -0.000000000000000000 ) ) ;
#132 = CARTESIAN_POINT ( 'NONE',  ( -3.000000000000002665, 0.000000000000000000, 0.000000000000000000 ) ) ;
#133 = CYLINDRICAL_SURFACE ( 'NONE', #138, 25.39999999999999858 ) ;
#134 = AXIS2_PLACEMENT_3D ( 'NONE', #108, #54, #14 ) ;
#135 = LOCAL_TIME ( 9, 38, 4.000000000000000000, #71 ) ;
#136 = FACE_OUTER_BOUND ( 'NONE', #64, .T. ) ;
#137 = APPROVAL_DATE_TIME ( #16, #41 ) ;
#138 = AXIS2_PLACEMENT_3D ( 'NONE', #89, #55, #94 ) ;
#139 = LOCAL_TIME ( 9, 38, 4.000000000000000000, #56 ) ;
#140 = DATE_AND_TIME ( #110, #150 ) ;
#141 = COORDINATED_UNIVERSAL_TIME_OFFSET ( 8, 0, .AHEAD. ) ;
#142 = APPROVAL ( #19, 'UNSPECIFIED' ) ;
#143 = VERTEX_POINT ( 'NONE', #93 ) ;
#144 = VERTEX_POINT ( 'NONE', #50 ) ;
#145 = DATE_AND_TIME ( #74, #90 ) ;
#146 =( NAMED_UNIT ( * ) SI_UNIT ( $, .STERADIAN. ) SOLID_ANGLE_UNIT ( ) );
#147 = DIRECTION ( 'NONE',  ( -1.000000000000000000, -0.000000000000000000, -0.000000000000000000 ) ) ;
#148 = PLANE ( 'NONE',  #134 ) ;
#149 =( NAMED_UNIT ( * ) PLANE_ANGLE_UNIT ( ) SI_UNIT ( $, .RADIAN. ) );
#150 = LOCAL_TIME ( 9, 38, 4.000000000000000000, #125 ) ;
#151 = APPROVAL_STATUS ( 'not_yet_approved' ) ;
#152 = DATE_AND_TIME ( #99, #135 ) ;
#153 = PERSON_AND_ORGANIZATION ( #173, #167 ) ;
#154 = ADVANCED_BREP_SHAPE_REPRESENTATION ( 'QB-CTZHWP-50.8-1310-M', ( #113, #126 ), #116 ) ;
#155 = CALENDAR_DATE ( 2020, 24, 12 ) ;
#156 = ADVANCED_FACE ( 'NONE', ( #28 ), #133, .T. ) ;
#157 = APPROVAL_PERSON_ORGANIZATION ( #46, #7, #60 ) ;
#158 = ORIENTED_EDGE ( 'NONE', *, *, #22, .F. ) ;
#159 = ORIENTED_EDGE ( 'NONE', *, *, #95, .F. ) ;
#160 = CARTESIAN_POINT ( 'NONE',  ( -3.000000000000002665, 0.000000000000000000, 0.000000000000000000 ) ) ;
#161 = CC_DESIGN_SECURITY_CLASSIFICATION ( #63, ( #23 ) ) ;
#162 = AXIS2_PLACEMENT_3D ( 'NONE', #29, #69, #68 ) ;
#163 = DIRECTION ( 'NONE',  ( 1.000000000000000000, 0.000000000000000000, 0.000000000000000000 ) ) ;
#164 = CC_DESIGN_PERSON_AND_ORGANIZATION_ASSIGNMENT ( #32, #31, ( #23 ) ) ;
#165 = PRODUCT ( 'QB-CTZHWP-50.8-1310-M', 'QB-CTZHWP-50.8-1310-M', '', ( #83 ) ) ;
#166 = CALENDAR_DATE ( 2020, 24, 12 ) ;
#167 = ORGANIZATION ( 'UNSPECIFIED', 'UNSPECIFIED', '' ) ;
#168 = APPLICATION_CONTEXT ( 'configuration controlled 3d designs of mechanical parts and assemblies' ) ;
#169 = CARTESIAN_POINT ( 'NONE',  ( -3.000000000000000000, 0.000000000000000000, 25.39999999999999858 ) ) ;
#170 = ORIENTED_EDGE ( 'NONE', *, *, #22, .T. ) ;
#171 = PLANE ( 'NONE',  #43 ) ;
#172 = LOCAL_TIME ( 9, 38, 4.000000000000000000, #141 ) ;
#173 = PERSON ( 'UNSPECIFIED', 'UNSPECIFIED', 'UNSPECIFIED', ('UNSPECIFIED'), ('UNSPECIFIED'), ('UNSPECIFIED') ) ;
#174 = CARTESIAN_POINT ( 'NONE',  ( -3.000000000000002665, 3.110602869834276865E-15, -25.39999999999999858 ) ) ;
#175 = APPLICATION_PROTOCOL_DEFINITION ( 'international standard', 'config_control_design', 1994, #6 ) ;
ENDSEC;
END-ISO-10303-21;
